Наша территория
Главная | Песни с аккордами | Регистрация | Вход
 
Вторник, 05.03.2024, 00:57
Приветствую Вас Гость | RSS
Творчество
ТОП
Форма входа
E-mail:
Пароль:
Мы в сетях
Новинки форума
Новый пользователь
(reablewafnura)
(Татьяна)
(medikaK)
(Александр)
(PinUz241K)
Наша Статистика




Онлайн всего: 1
Гостей: 1
Пользователей: 0
Любимые песни под гитару » Loc-Dog

По Вискам... (Значит ты рождена чтобы трепать мне нервы...)

Loc Dog - По Вискам... (Значит ты рождена чтобы трепать мне нервы...)


Hm G A F#
Hm G A F#

Hm                                   G
Не кричи пожалуйста,зачем эти истерики?
G                                     A
У нас один корабль, нам к одному берегу,
A                                         F#
Слишком широкий беренгов,но не бросай весла,
F#                                  Hm
Всё будет хорошо,просто верь,серьёзно,
Я вытру твои слезы,
Ты с мокрыми ресницами начнешь рассказывать что-то,что мне часто снится,
Мы до утра как птицы,на одном дыхании,
Ближе к тебе,поменьше расстояния,
Ты-моя мания,я и не знал что бывает,
Когда человек меня с полслова понимает,
Так это улыбает,я знаю что не лучший,
Помню в неадеквате очень вкусные суши.
Ты просила-не нужно,я забивал,не слушал,
Прости за то,что нас сейчас все это кружит,
За то,что мы с тобой стали как кошка с псом,
Всё будет хорошо,всё приходит с опытом.

По вискам пульс,я за тебя молюсь,
За окном осень,листья рисуют грусть,
Ночи темные,эхо тихое,
Мы друг для друга яд,но нет другого выхода
По вискам пульс,я за тебя молюсь,
За окном осень,листья рисуют грусть,
Ночи темные,эхо тихое,
Мы друг для друга яд,но нет другого выхода.

Брось мне в голову вазу,запутайся во фразах,
Но всё равно тебя люблю ,ты слышишь,зараза?
Я буду ласков,а ты сменишь(?)
Но значит ты рождена,чтобы трепать мне нервы,
А ну какого хера наш корабль на мели?
Но знаю что потом померимся в постели,
Неделя за неделей,крики,потом взгляды с ропотом,
Но значит нужно кому-то,чтоб мы набрались опыта.
Чтоб с утра шопотом,о мелком и важном,
И я сомневаюсь,что так способен каждый,
Срывать листки со стенок,в истерике рвать в клочья,
А ночью в супермаркет к прилавку заскочим,
Это забавно очень,ты синдромом принцессы,
Так утонченно в смс писала замесы,
Всё было слишком пресным,я запивал текилой,
И меня не подпускала эта дикая сила,
Будь моим кило,милая,я тебе доверяю,
Ты не задумываешься,берешь ствол и стреляешь,
Контрольный в голову мне,плюс себе одиночный,
Я подожду тебя там,ты придешь точно.

Простенько можно так сыграть: 

E||----------2---------------2-------|----------3---------------3-------| 
B||------3-------3-------3-------3---|------0-------0-------0-------0---| 
G||----4---4---4---4---4---4---4---4-|----0---0---0---0---0---0---0---0-| 
D||----------------------------------|----------------------------------| 
A||--2---------------2---------------|----------------------------------| 
E||----------------------------------|--3---------------3---------------| 

----------0---------------0-------|----------2---------------2-------|| 
------2-------2-------2-------2---|------2-------2-------2-------2---|| 
----2---2---2---2---2---2---2---2-|----3---3---3---3---3---3---3---3-|| 
----------------------------------|----------------------------------|| 
--0---------------0---------------|----------------------------------|| 
----------------------------------|--2---------------2---------------|| 

Посложнее, приближено к оригиналу будет как то так: 

E||-------------2------2--------|-------------3------3--------| 
B||--------3-------------3---3--|--------0-------------3---0--| 
G||-----4-----4----4-------4----|-----0-----0----0-------0----| 
D||-----------------------------|-----------------------------| 
A||--2--------------------------|-----------------------------| 
E||-----------------------------|--3--------------------------| 

-------------0------0--------|-------------2-------------| 
--------2-------------2------|---------------------2-----| 
-----2-----2----2-------2----|--------3---------------3--| 
--------------------------2--|-----4-----4----4--4-------| 
--0--------------------------|---------------------------| 
-----------------------------|--2------------------------| 


Слушать ОНЛАЙН : http://www.accordoff.net/
Категория: Loc-Dog | Добавил: Стихоплёт (14.08.2012)
Просмотров: 2321 | Теги: нервы, Крик | Рейтинг: 5.0/2
Всего комментариев: 0
Добавлять комментарии могут только зарегистрированные пользователи.
[ Регистрация | Вход ]
Поиск по сайту
Сообщения
Мои сообщения
(Входящие: )
  • Общаемся
     
    500
    ТОП исполнитель
    По какому параметру определять лучшего исполнителя?
    Всего ответов: 16
    Наш опрос
    Оцените мой сайт
    Всего ответов: 578
    Нас больше
    Нас больше - Агломерации
    Всего ответов: 338
    Друзья сайта
    "ГИТАРНЫЕ УРОКИ online"

    "ВЕДЫ для ДУШИ"

    Песни под гитару

    Моя Мечта

    Пенополиуретан


    Наша территория © 2024 Все права на музыкальные произведения, стихи принадлежат их владельцам.